ISO-10303-21;
HEADER;
FILE_DESCRIPTION (( 'STEP AP214' ),
    '1' );
FILE_NAME ('GCC-411126.STEP',
    '2020-02-15T10:10:59',
    ( 'China' ),
    ( 'Microsoft' ),
    'SwSTEP 2.0',
    'SolidWorks 2018',
    '' );
FILE_SCHEMA (( 'AUTOMOTIVE_DESIGN' ));
ENDSEC;

DATA;
#1 = EDGE_LOOP ( 'NONE', ( #60, #79, #117, #197 ) ) ;
#2 = ORIENTED_EDGE ( 'NONE', *, *, #59, .T. ) ;
#3 = PRODUCT_DEFINITION_FORMATION_WITH_SPECIFIED_SOURCE ( 'ÈÎºÎ', '', #142, .NOT_KNOWN. ) ;
#4 = EDGE_LOOP ( 'NONE', ( #134, #66, #2, #33 ) ) ;
#5 = CARTESIAN_POINT ( 'NONE',  ( 12.40000000000000036, 0.0000000000000000000, 0.0000000000000000000 ) ) ;
#6 = DIRECTION ( 'NONE',  ( 1.000000000000000000, 0.0000000000000000000, 0.0000000000000000000 ) ) ;
#7 = ORIENTED_EDGE ( 'NONE', *, *, #237, .F. ) ;
#8 = CARTESIAN_POINT ( 'NONE',  ( -12.39999999999999325, 0.0000000000000000000, 3.000000000000000000 ) ) ;
#9 = ADVANCED_FACE ( 'NONE', ( #46 ), #96, .T. ) ;
#10 = AXIS2_PLACEMENT_3D ( 'NONE', #48, #190, #135 ) ;
#11 = ORIENTED_EDGE ( 'NONE', *, *, #183, .T. ) ;
#12 = EDGE_CURVE ( 'NONE', #69, #101, #139, .T. ) ;
#13 = COLOUR_RGB ( '',0.9411764705882352811, 0.9607843137254902244, 0.9686274509803921573 ) ;
#14 = DIRECTION ( 'NONE',  ( 1.000000000000000000, 0.0000000000000000000, 0.0000000000000000000 ) ) ;
#15 = CARTESIAN_POINT ( 'NONE',  ( 0.0000000000000000000, 0.0000000000000000000, 3.000000000000000000 ) ) ;
#16 = FILL_AREA_STYLE ('',( #164 ) ) ;
#17 = CIRCLE ( 'NONE', #27, 12.39999999999999325 ) ;
#18 = ORIENTED_EDGE ( 'NONE', *, *, #196, .T. ) ;
#19 = APPLICATION_PROTOCOL_DEFINITION ( 'draft international standard', 'automotive_design', 1998, #70 ) ;
#20 = CYLINDRICAL_SURFACE ( 'NONE', #220, 12.69999999999999929 ) ;
#21 = ORIENTED_EDGE ( 'NONE', *, *, #159, .T. ) ;
#22 = CARTESIAN_POINT ( 'NONE',  ( -12.39999999999999325, 0.0000000000000000000, 3.000000000000000000 ) ) ;
#23 = AXIS2_PLACEMENT_3D ( 'NONE', #42, #112, #132 ) ;
#24 = DIRECTION ( 'NONE',  ( -0.0000000000000000000, -0.0000000000000000000, 1.000000000000000000 ) ) ;
#25 = ORIENTED_EDGE ( 'NONE', *, *, #201, .F. ) ;
#26 = EDGE_LOOP ( 'NONE', ( #18, #21 ) ) ;
#27 = AXIS2_PLACEMENT_3D ( 'NONE', #85, #238, #239 ) ;
#28 =( LENGTH_UNIT ( ) NAMED_UNIT ( * ) SI_UNIT ( .MILLI., .METRE. ) );
#29 = UNCERTAINTY_MEASURE_WITH_UNIT (LENGTH_MEASURE( 1.000000000000000082E-05 ), #198, 'distance_accuracy_value', 'NONE');
#30 = DIRECTION ( 'NONE',  ( 0.7071067811865495711, 8.659560562354956277E-17, -0.7071067811865454633 ) ) ;
#31 =( NAMED_UNIT ( * ) PLANE_ANGLE_UNIT ( ) SI_UNIT ( $, .RADIAN. ) );
#32 = LINE ( 'NONE', #232, #41 ) ;
#33 = ORIENTED_EDGE ( 'NONE', *, *, #146, .F. ) ;
#34 = DIRECTION ( 'NONE',  ( 1.000000000000000000, 0.0000000000000000000, 0.0000000000000000000 ) ) ;
#35 = FACE_OUTER_BOUND ( 'NONE', #77, .T. ) ;
#36 = VERTEX_POINT ( 'NONE', #8 ) ;
#37 = EDGE_CURVE ( 'NONE', #208, #83, #130, .T. ) ;
#38 = VECTOR ( 'NONE', #72, 1000.000000000000000 ) ;
#39 = DIRECTION ( 'NONE',  ( -0.0000000000000000000, -0.0000000000000000000, -1.000000000000000000 ) ) ;
#40 = ADVANCED_BREP_SHAPE_REPRESENTATION ( 'GCC-411126', ( #160, #23 ), #153 ) ;
#41 = VECTOR ( 'NONE', #39, 1000.000000000000000 ) ;
#42 = CARTESIAN_POINT ( 'NONE',  ( 0.0000000000000000000, 0.0000000000000000000, 0.0000000000000000000 ) ) ;
#43 = FILL_AREA_STYLE ('',( #54 ) ) ;
#44 = SURFACE_STYLE_FILL_AREA ( #43 ) ;
#45 = PRODUCT_CONTEXT ( 'NONE', #217, 'mechanical' ) ;
#46 = FACE_OUTER_BOUND ( 'NONE', #51, .T. ) ;
#47 = CARTESIAN_POINT ( 'NONE',  ( 0.0000000000000000000, 0.0000000000000000000, 3.000000000000000000 ) ) ;
#48 = CARTESIAN_POINT ( 'NONE',  ( 0.0000000000000000000, 0.0000000000000000000, 0.2999999999999981570 ) ) ;
#49 =( GEOMETRIC_REPRESENTATION_CONTEXT ( 3 ) GLOBAL_UNCERTAINTY_ASSIGNED_CONTEXT ( ( #29 ) ) GLOBAL_UNIT_ASSIGNED_CONTEXT ( ( #198, #181, #203 ) ) REPRESENTATION_CONTEXT ( 'NONE', 'WORKASPACE' ) );
#50 = CARTESIAN_POINT ( 'NONE',  ( 0.0000000000000000000, 0.0000000000000000000, 3.000000000000000000 ) ) ;
#51 = EDGE_LOOP ( 'NONE', ( #163, #195, #140, #224 ) ) ;
#52 = CARTESIAN_POINT ( 'NONE',  ( 0.0000000000000000000, 0.0000000000000000000, 0.2999999999999981570 ) ) ;
#53 = EDGE_CURVE ( 'NONE', #83, #101, #109, .T. ) ;
#54 = FILL_AREA_STYLE_COLOUR ( '', #111 ) ;
#55 = AXIS2_PLACEMENT_3D ( 'NONE', #52, #24, #34 ) ;
#56 = ADVANCED_FACE ( 'NONE', ( #191 ), #236, .T. ) ;
#57 = ORIENTED_EDGE ( 'NONE', *, *, #223, .T. ) ;
#58 = VERTEX_POINT ( 'NONE', #189 ) ;
#59 = EDGE_CURVE ( 'NONE', #101, #233, #175, .T. ) ;
#60 = ORIENTED_EDGE ( 'NONE', *, *, #53, .F. ) ;
#61 =( NAMED_UNIT ( * ) SI_UNIT ( $, .STERADIAN. ) SOLID_ANGLE_UNIT ( ) );
#62 = DIRECTION ( 'NONE',  ( 1.000000000000000000, 0.0000000000000000000, 0.0000000000000000000 ) ) ;
#63 = ADVANCED_FACE ( 'NONE', ( #94 ), #20, .T. ) ;
#64 = STYLED_ITEM ( 'NONE', ( #123 ), #40 ) ;
#65 = DIRECTION ( 'NONE',  ( 1.000000000000000000, 0.0000000000000000000, -0.0000000000000000000 ) ) ;
#66 = ORIENTED_EDGE ( 'NONE', *, *, #53, .T. ) ;
#67 = DIRECTION ( 'NONE',  ( 0.0000000000000000000, 0.0000000000000000000, 1.000000000000000000 ) ) ;
#68 = EDGE_CURVE ( 'NONE', #36, #208, #187, .T. ) ;
#69 = VERTEX_POINT ( 'NONE', #5 ) ;
#70 = APPLICATION_CONTEXT ( 'automotive_design' ) ;
#71 = AXIS2_PLACEMENT_3D ( 'NONE', #182, #108, #200 ) ;
#72 = DIRECTION ( 'NONE',  ( -0.0000000000000000000, -0.0000000000000000000, -1.000000000000000000 ) ) ;
#73 = CIRCLE ( 'NONE', #105, 12.69999999999999929 ) ;
#74 = DIRECTION ( 'NONE',  ( -1.000000000000000000, 0.0000000000000000000, 0.0000000000000000000 ) ) ;
#75 = PRESENTATION_LAYER_ASSIGNMENT (  '', '', ( #125 ) ) ;
#76 = DIRECTION ( 'NONE',  ( -1.000000000000000000, 0.0000000000000000000, 0.0000000000000000000 ) ) ;
#77 = EDGE_LOOP ( 'NONE', ( #206, #124, #152, #218 ) ) ;
#78 = DIRECTION ( 'NONE',  ( -1.000000000000000000, 0.0000000000000000000, 0.0000000000000000000 ) ) ;
#79 = ORIENTED_EDGE ( 'NONE', *, *, #81, .T. ) ;
#80 = CLOSED_SHELL ( 'NONE', ( #56, #166, #148, #63, #89, #222, #95, #9 ) ) ;
#81 = EDGE_CURVE ( 'NONE', #83, #208, #73, .T. ) ;
#82 = CONICAL_SURFACE ( 'NONE', #136, 12.69999999999999929, 0.7853981633974511656 ) ;
#83 = VERTEX_POINT ( 'NONE', #115 ) ;
#84 = AXIS2_PLACEMENT_3D ( 'NONE', #50, #212, #102 ) ;
#85 = CARTESIAN_POINT ( 'NONE',  ( 0.0000000000000000000, 0.0000000000000000000, 3.000000000000000000 ) ) ;
#86 =( GEOMETRIC_REPRESENTATION_CONTEXT ( 3 ) GLOBAL_UNCERTAINTY_ASSIGNED_CONTEXT ( ( #231 ) ) GLOBAL_UNIT_ASSIGNED_CONTEXT ( ( #219, #184, #169 ) ) REPRESENTATION_CONTEXT ( 'NONE', 'WORKASPACE' ) );
#87 = CARTESIAN_POINT ( 'NONE',  ( -12.69999999999999929, 0.0000000000000000000, 0.2999999999999981570 ) ) ;
#88 = PRESENTATION_STYLE_ASSIGNMENT (( #126 ) ) ;
#89 = ADVANCED_FACE ( 'NONE', ( #145 ), #156, .T. ) ;
#90 = DIRECTION ( 'NONE',  ( 1.000000000000000000, 0.0000000000000000000, 0.0000000000000000000 ) ) ;
#91 = SURFACE_STYLE_USAGE ( .BOTH. , #149 ) ;
#92 = SURFACE_SIDE_STYLE ('',( #44 ) ) ;
#93 = AXIS2_PLACEMENT_3D ( 'NONE', #235, #221, #14 ) ;
#94 = FACE_OUTER_BOUND ( 'NONE', #1, .T. ) ;
#95 = ADVANCED_FACE ( 'NONE', ( #107 ), #82, .T. ) ;
#96 = CONICAL_SURFACE ( 'NONE', #110, 12.39999999999999325, 0.7853981633974511656 ) ;
#97 = DIRECTION ( 'NONE',  ( 0.0000000000000000000, 0.0000000000000000000, -1.000000000000000000 ) ) ;
#98 = PRESENTATION_LAYER_ASSIGNMENT (  '', '', ( #64 ) ) ;
#99 = ORIENTED_EDGE ( 'NONE', *, *, #12, .T. ) ;
#100 = CARTESIAN_POINT ( 'NONE',  ( 0.0000000000000000000, 0.0000000000000000000, 2.699999999999994849 ) ) ;
#101 = VERTEX_POINT ( 'NONE', #121 ) ;
#102 = DIRECTION ( 'NONE',  ( 1.000000000000000000, 0.0000000000000000000, -0.0000000000000000000 ) ) ;
#103 = MECHANICAL_DESIGN_GEOMETRIC_PRESENTATION_REPRESENTATION (  '', ( #125 ), #49 ) ;
#104 = DIRECTION ( 'NONE',  ( -0.0000000000000000000, -0.0000000000000000000, 1.000000000000000000 ) ) ;
#105 = AXIS2_PLACEMENT_3D ( 'NONE', #100, #118, #161 ) ;
#106 = PRODUCT_DEFINITION_CONTEXT ( 'detailed design', #70, 'design' ) ;
#107 = FACE_OUTER_BOUND ( 'NONE', #215, .T. ) ;
#108 = DIRECTION ( 'NONE',  ( -0.0000000000000000000, -0.0000000000000000000, 1.000000000000000000 ) ) ;
#109 = LINE ( 'NONE', #141, #38 ) ;
#110 = AXIS2_PLACEMENT_3D ( 'NONE', #210, #226, #76 ) ;
#111 = COLOUR_RGB ( '',0.9411764705882352811, 0.9607843137254902244, 0.9686274509803921573 ) ;
#112 = DIRECTION ( 'NONE',  ( 0.0000000000000000000, 0.0000000000000000000, 1.000000000000000000 ) ) ;
#113 = LINE ( 'NONE', #165, #133 ) ;
#114 = AXIS2_PLACEMENT_3D ( 'NONE', #47, #97, #225 ) ;
#115 = CARTESIAN_POINT ( 'NONE',  ( 12.69999999999999929, 1.555301434917138433E-15, 2.699999999999994849 ) ) ;
#116 = VECTOR ( 'NONE', #207, 1000.000000000000000 ) ;
#117 = ORIENTED_EDGE ( 'NONE', *, *, #146, .T. ) ;
#118 = DIRECTION ( 'NONE',  ( 0.0000000000000000000, 0.0000000000000000000, -1.000000000000000000 ) ) ;
#119 = AXIS2_PLACEMENT_3D ( 'NONE', #15, #179, #90 ) ;
#120 = FACE_OUTER_BOUND ( 'NONE', #158, .T. ) ;
#121 = CARTESIAN_POINT ( 'NONE',  ( 12.69999999999999929, 1.555301434917138433E-15, 0.2999999999999981570 ) ) ;
#122 = PRODUCT_DEFINITION ( 'Î´Öª', '', #3, #106 ) ;
#123 = PRESENTATION_STYLE_ASSIGNMENT (( #91 ) ) ;
#124 = ORIENTED_EDGE ( 'NONE', *, *, #237, .T. ) ;
#125 = STYLED_ITEM ( 'NONE', ( #88 ), #160 ) ;
#126 = SURFACE_STYLE_USAGE ( .BOTH. , #92 ) ;
#127 = MECHANICAL_DESIGN_GEOMETRIC_PRESENTATION_REPRESENTATION (  '', ( #64 ), #86 ) ;
#128 = APPLICATION_PROTOCOL_DEFINITION ( 'draft international standard', 'automotive_design', 1998, #217 ) ;
#129 = CARTESIAN_POINT ( 'NONE',  ( 0.0000000000000000000, 0.0000000000000000000, 0.0000000000000000000 ) ) ;
#130 = CIRCLE ( 'NONE', #150, 12.69999999999999929 ) ;
#131 = ORIENTED_EDGE ( 'NONE', *, *, #159, .F. ) ;
#132 = DIRECTION ( 'NONE',  ( 1.000000000000000000, 0.0000000000000000000, 0.0000000000000000000 ) ) ;
#133 = VECTOR ( 'NONE', #202, 1000.000000000000000 ) ;
#134 = ORIENTED_EDGE ( 'NONE', *, *, #37, .T. ) ;
#135 = DIRECTION ( 'NONE',  ( 1.000000000000000000, 0.0000000000000000000, 0.0000000000000000000 ) ) ;
#136 = AXIS2_PLACEMENT_3D ( 'NONE', #230, #104, #173 ) ;
#137 = DIRECTION ( 'NONE',  ( -0.0000000000000000000, -0.0000000000000000000, -1.000000000000000000 ) ) ;
#138 = SHAPE_DEFINITION_REPRESENTATION ( #214, #40 ) ;
#139 = LINE ( 'NONE', #192, #162 ) ;
#140 = ORIENTED_EDGE ( 'NONE', *, *, #68, .T. ) ;
#141 = CARTESIAN_POINT ( 'NONE',  ( 12.69999999999999929, 1.555301434917138433E-15, 3.000000000000000000 ) ) ;
#142 = PRODUCT ( 'GCC-411126', 'GCC-411126', '', ( #45 ) ) ;
#143 = AXIS2_PLACEMENT_3D ( 'NONE', #194, #172, #78 ) ;
#144 = VECTOR ( 'NONE', #30, 1000.000000000000000 ) ;
#145 = FACE_OUTER_BOUND ( 'NONE', #26, .T. ) ;
#146 = EDGE_CURVE ( 'NONE', #208, #233, #32, .T. ) ;
#147 = ORIENTED_EDGE ( 'NONE', *, *, #193, .T. ) ;
#148 = ADVANCED_FACE ( 'NONE', ( #213 ), #167, .T. ) ;
#149 = SURFACE_SIDE_STYLE ('',( #185 ) ) ;
#150 = AXIS2_PLACEMENT_3D ( 'NONE', #188, #227, #6 ) ;
#151 = CARTESIAN_POINT ( 'NONE',  ( 12.39999999999999325, 1.536931732929927411E-15, 3.000000000000000000 ) ) ;
#152 = ORIENTED_EDGE ( 'NONE', *, *, #59, .F. ) ;
#153 =( GEOMETRIC_REPRESENTATION_CONTEXT ( 3 ) GLOBAL_UNCERTAINTY_ASSIGNED_CONTEXT ( ( #154 ) ) GLOBAL_UNIT_ASSIGNED_CONTEXT ( ( #28, #31, #61 ) ) REPRESENTATION_CONTEXT ( 'NONE', 'WORKASPACE' ) );
#154 = UNCERTAINTY_MEASURE_WITH_UNIT (LENGTH_MEASURE( 1.000000000000000082E-05 ), #28, 'distance_accuracy_value', 'NONE');
#155 = CARTESIAN_POINT ( 'NONE',  ( 0.0000000000000000000, 0.0000000000000000000, 3.000000000000000000 ) ) ;
#156 = PLANE ( 'NONE',  #84 ) ;
#157 = PRODUCT_RELATED_PRODUCT_CATEGORY ( 'part', '', ( #142 ) ) ;
#158 = EDGE_LOOP ( 'NONE', ( #11, #147 ) ) ;
#159 = EDGE_CURVE ( 'NONE', #177, #36, #17, .T. ) ;
#160 = MANIFOLD_SOLID_BREP ( 'µ¹½Ç1', #80 ) ;
#161 = DIRECTION ( 'NONE',  ( 1.000000000000000000, 0.0000000000000000000, 0.0000000000000000000 ) ) ;
#162 = VECTOR ( 'NONE', #229, 1000.000000000000000 ) ;
#163 = ORIENTED_EDGE ( 'NONE', *, *, #223, .F. ) ;
#164 = FILL_AREA_STYLE_COLOUR ( '', #13 ) ;
#165 = CARTESIAN_POINT ( 'NONE',  ( -12.69999999999999929, 1.555301434917138433E-15, 0.2999999999999981570 ) ) ;
#166 = ADVANCED_FACE ( 'NONE', ( #35 ), #199, .T. ) ;
#167 = CYLINDRICAL_SURFACE ( 'NONE', #143, 12.69999999999999929 ) ;
#168 = CARTESIAN_POINT ( 'NONE',  ( 0.0000000000000000000, 0.0000000000000000000, 0.0000000000000000000 ) ) ;
#169 =( NAMED_UNIT ( * ) SI_UNIT ( $, .STERADIAN. ) SOLID_ANGLE_UNIT ( ) );
#170 = AXIS2_PLACEMENT_3D ( 'NONE', #129, #216, #62 ) ;
#171 = CIRCLE ( 'NONE', #119, 12.39999999999999325 ) ;
#172 = DIRECTION ( 'NONE',  ( -0.0000000000000000000, -0.0000000000000000000, -1.000000000000000000 ) ) ;
#173 = DIRECTION ( 'NONE',  ( 1.000000000000000000, 0.0000000000000000000, 0.0000000000000000000 ) ) ;
#174 = CIRCLE ( 'NONE', #71, 12.69999999999999929 ) ;
#175 = CIRCLE ( 'NONE', #10, 12.69999999999999929 ) ;
#176 = AXIS2_PLACEMENT_3D ( 'NONE', #168, #67, #65 ) ;
#177 = VERTEX_POINT ( 'NONE', #151 ) ;
#178 = ORIENTED_EDGE ( 'NONE', *, *, #37, .F. ) ;
#179 = DIRECTION ( 'NONE',  ( 0.0000000000000000000, 0.0000000000000000000, 1.000000000000000000 ) ) ;
#180 = PLANE ( 'NONE',  #176 ) ;
#181 =( NAMED_UNIT ( * ) PLANE_ANGLE_UNIT ( ) SI_UNIT ( $, .RADIAN. ) );
#182 = CARTESIAN_POINT ( 'NONE',  ( 0.0000000000000000000, 0.0000000000000000000, 0.2999999999999981570 ) ) ;
#183 = EDGE_CURVE ( 'NONE', #69, #58, #228, .T. ) ;
#184 =( NAMED_UNIT ( * ) PLANE_ANGLE_UNIT ( ) SI_UNIT ( $, .RADIAN. ) );
#185 = SURFACE_STYLE_FILL_AREA ( #16 ) ;
#186 = ORIENTED_EDGE ( 'NONE', *, *, #68, .F. ) ;
#187 = LINE ( 'NONE', #22, #116 ) ;
#188 = CARTESIAN_POINT ( 'NONE',  ( 0.0000000000000000000, 0.0000000000000000000, 2.699999999999994849 ) ) ;
#189 = CARTESIAN_POINT ( 'NONE',  ( -12.40000000000000036, 1.536931732929928200E-15, 0.0000000000000000000 ) ) ;
#190 = DIRECTION ( 'NONE',  ( -0.0000000000000000000, -0.0000000000000000000, 1.000000000000000000 ) ) ;
#191 = FACE_OUTER_BOUND ( 'NONE', #205, .T. ) ;
#192 = CARTESIAN_POINT ( 'NONE',  ( 12.69999999999999929, 0.0000000000000000000, 0.2999999999999981570 ) ) ;
#193 = EDGE_CURVE ( 'NONE', #58, #69, #204, .T. ) ;
#194 = CARTESIAN_POINT ( 'NONE',  ( 0.0000000000000000000, 0.0000000000000000000, 3.000000000000000000 ) ) ;
#195 = ORIENTED_EDGE ( 'NONE', *, *, #196, .F. ) ;
#196 = EDGE_CURVE ( 'NONE', #36, #177, #171, .T. ) ;
#197 = ORIENTED_EDGE ( 'NONE', *, *, #201, .T. ) ;
#198 =( LENGTH_UNIT ( ) NAMED_UNIT ( * ) SI_UNIT ( .MILLI., .METRE. ) );
#199 = CONICAL_SURFACE ( 'NONE', #55, 12.69999999999999929, 0.7853981633974511656 ) ;
#200 = DIRECTION ( 'NONE',  ( 1.000000000000000000, 0.0000000000000000000, 0.0000000000000000000 ) ) ;
#201 = EDGE_CURVE ( 'NONE', #233, #101, #174, .T. ) ;
#202 = DIRECTION ( 'NONE',  ( -0.7071067811865495711, 8.659560562354957510E-17, 0.7071067811865454633 ) ) ;
#203 =( NAMED_UNIT ( * ) SI_UNIT ( $, .STERADIAN. ) SOLID_ANGLE_UNIT ( ) );
#204 = CIRCLE ( 'NONE', #170, 12.40000000000000036 ) ;
#205 = EDGE_LOOP ( 'NONE', ( #131, #57, #178, #186 ) ) ;
#206 = ORIENTED_EDGE ( 'NONE', *, *, #193, .F. ) ;
#207 = DIRECTION ( 'NONE',  ( -0.7071067811865495711, 0.0000000000000000000, -0.7071067811865454633 ) ) ;
#208 = VERTEX_POINT ( 'NONE', #240 ) ;
#209 = ORIENTED_EDGE ( 'NONE', *, *, #183, .F. ) ;
#210 = CARTESIAN_POINT ( 'NONE',  ( 0.0000000000000000000, 0.0000000000000000000, 3.000000000000000000 ) ) ;
#211 = LINE ( 'NONE', #234, #144 ) ;
#212 = DIRECTION ( 'NONE',  ( 0.0000000000000000000, 0.0000000000000000000, 1.000000000000000000 ) ) ;
#213 = FACE_OUTER_BOUND ( 'NONE', #4, .T. ) ;
#214 = PRODUCT_DEFINITION_SHAPE ( 'NONE', 'NONE',  #122 ) ;
#215 = EDGE_LOOP ( 'NONE', ( #7, #209, #99, #25 ) ) ;
#216 = DIRECTION ( 'NONE',  ( -0.0000000000000000000, -0.0000000000000000000, -1.000000000000000000 ) ) ;
#217 = APPLICATION_CONTEXT ( 'automotive_design' ) ;
#218 = ORIENTED_EDGE ( 'NONE', *, *, #12, .F. ) ;
#219 =( LENGTH_UNIT ( ) NAMED_UNIT ( * ) SI_UNIT ( .MILLI., .METRE. ) );
#220 = AXIS2_PLACEMENT_3D ( 'NONE', #155, #137, #74 ) ;
#221 = DIRECTION ( 'NONE',  ( -0.0000000000000000000, -0.0000000000000000000, -1.000000000000000000 ) ) ;
#222 = ADVANCED_FACE ( 'NONE', ( #120 ), #180, .F. ) ;
#223 = EDGE_CURVE ( 'NONE', #177, #83, #211, .T. ) ;
#224 = ORIENTED_EDGE ( 'NONE', *, *, #81, .F. ) ;
#225 = DIRECTION ( 'NONE',  ( -1.000000000000000000, 0.0000000000000000000, 0.0000000000000000000 ) ) ;
#226 = DIRECTION ( 'NONE',  ( 0.0000000000000000000, 0.0000000000000000000, -1.000000000000000000 ) ) ;
#227 = DIRECTION ( 'NONE',  ( 0.0000000000000000000, 0.0000000000000000000, -1.000000000000000000 ) ) ;
#228 = CIRCLE ( 'NONE', #93, 12.40000000000000036 ) ;
#229 = DIRECTION ( 'NONE',  ( 0.7071067811865495711, 0.0000000000000000000, 0.7071067811865454633 ) ) ;
#230 = CARTESIAN_POINT ( 'NONE',  ( 0.0000000000000000000, 0.0000000000000000000, 0.2999999999999981570 ) ) ;
#231 = UNCERTAINTY_MEASURE_WITH_UNIT (LENGTH_MEASURE( 1.000000000000000082E-05 ), #219, 'distance_accuracy_value', 'NONE');
#232 = CARTESIAN_POINT ( 'NONE',  ( -12.69999999999999929, 0.0000000000000000000, 3.000000000000000000 ) ) ;
#233 = VERTEX_POINT ( 'NONE', #87 ) ;
#234 = CARTESIAN_POINT ( 'NONE',  ( 12.39999999999999325, 1.518562030942716784E-15, 3.000000000000000000 ) ) ;
#235 = CARTESIAN_POINT ( 'NONE',  ( 0.0000000000000000000, 0.0000000000000000000, 0.0000000000000000000 ) ) ;
#236 = CONICAL_SURFACE ( 'NONE', #114, 12.39999999999999325, 0.7853981633974511656 ) ;
#237 = EDGE_CURVE ( 'NONE', #58, #233, #113, .T. ) ;
#238 = DIRECTION ( 'NONE',  ( 0.0000000000000000000, 0.0000000000000000000, 1.000000000000000000 ) ) ;
#239 = DIRECTION ( 'NONE',  ( 1.000000000000000000, 0.0000000000000000000, 0.0000000000000000000 ) ) ;
#240 = CARTESIAN_POINT ( 'NONE',  ( -12.69999999999999929, 0.0000000000000000000, 2.699999999999994849 ) ) ;
ENDSEC;
END-ISO-10303-21;
